0
SECTION
2
HEADER
9
$INSUNITS
70
4
9
$ACADVER
1
AC1014
9
$HANDSEED
5
FFFF
0
ENDSEC
0
SECTION
2
TABLES
0
TABLE
2
VPORT
5
8
100
AcDbSymbolTable
0
ENDTAB
0
TABLE
2
LTYPE
5
5
100
AcDbSymbolTable
0
LTYPE
5
14
100
AcDbSymbolTableRecord
100
AcDbLinetypeTableRecord
2
BYBLOCK
70
0
0
LTYPE
5
15
100
AcDbSymbolTableRecord
100
AcDbLinetypeTableRecord
2
BYLAYER
70
0
0
LTYPE
5
16
100
AcDbSymbolTableRecord
100
AcDbLinetypeTableRecord
2
DASHED
70
0
3
Dashed __ __ __ __ __ __ __ __ __ __ __ __ __ _
72
65
73
2
40
0.75
49
0.5
74
0
49
-0.25
74
0
0
ENDTAB
0
TABLE
2
LAYER
5
2
100
AcDbSymbolTable
70
2
0
LAYER
5
50
100
AcDbSymbolTableRecord
100
AcDbLayerTableRecord
2
0
70
0
62
7
6
CONTINUOUS
0
ENDTAB
0
TABLE
2
STYLE
5
3
100
AcDbSymbolTable
70
1
0
STYLE
5
11
100
AcDbSymbolTableRecord
100
AcDbTextStyleTableRecord
2
STANDARD
70
0
0
ENDTAB
0
TABLE
2
VIEW
5
6
100
AcDbSymbolTable
70
0
0
ENDTAB
0
TABLE
2
UCS
5
7
100
AcDbSymbolTable
70
0
0
ENDTAB
0
TABLE
2
APPID
5
9
100
AcDbSymbolTable
70
2
0
APPID
5
12
100
AcDbSymbolTableRecord
100
AcDbRegAppTableRecord
2
ACAD
70
0
0
ENDTAB
0
TABLE
2
DIMSTYLE
5
A
100
AcDbSymbolTable
70
1
0
ENDTAB
0
TABLE
2
BLOCK_RECORD
5
1
100
AcDbSymbolTable
70
1
0
BLOCK_RECORD
5
1F
100
AcDbSymbolTableRecord
100
AcDbBlockTableRecord
2
*MODEL_SPACE
0
BLOCK_RECORD
5
1B
100
AcDbSymbolTableRecord
100
AcDbBlockTableRecord
2
*PAPER_SPACE
0
ENDTAB
0
ENDSEC
0
SECTION
2
BLOCKS
0
BLOCK
5
20
100
AcDbEntity
100
AcDbBlockBegin
2
*MODEL_SPACE
0
ENDBLK
5
21
100
AcDbEntity
100
AcDbBlockEnd
0
BLOCK
5
1C
100
AcDbEntity
100
AcDbBlockBegin
2
*PAPER_SPACE
0
ENDBLK
5
1D
100
AcDbEntity
100
AcDbBlockEnd
0
ENDSEC
0
SECTION
2
ENTITIES
0
LWPOLYLINE
5
100
100
AcDbEntity
8
0
100
AcDbPolyline
90
8
70
1
43
0.0
10
-45.499999999999986
20
-19.5
10
-45.499999999999979
20
-60.500000000000007
10
45.5
20
-60.500000000000007
10
45.5
20
-19.499999999999986
42
0.99999999999999989
10
33.5
20
-19.5
10
33.499999999999993
20
-23.499999999999993
10
-33.5
20
-23.499999999999993
10
-33.5
20
-19.499999999999986
42
0.99999999999999989
0
CIRCLE
5
101
100
AcDbEntity
8
0
100
AcDbCircle
10
-10.99999999999997
20
-59.776793761679876
30
0
40
7.9500000000000162
210
0
220
-0
230
1
0
CIRCLE
5
102
100
AcDbEntity
8
0
100
AcDbCircle
10
-10.99999999999997
20
-59.776793761679876
30
0
40
7.9500000000000162
210
0
220
0
230
1
0
CIRCLE
5
103
100
AcDbEntity
8
0
100
AcDbCircle
10
11.000000000000076
20
-59.776793761679855
30
0
40
7.9500000000000162
210
0
220
-0
230
1
0
CIRCLE
5
104
100
AcDbEntity
8
0
100
AcDbCircle
10
11.000000000000076
20
-59.776793761679855
30
0
40
7.9500000000000162
210
0
220
0
230
1
0
LWPOLYLINE
5
105
100
AcDbEntity
8
0
100
AcDbPolyline
90
4
70
1
43
0.0
10
-19.999999999999979
20
-68.776793761679912
10
-19.999999999999996
20
-50.776793761679869
10
20.000000000000085
20
-50.776793761679841
10
20.000000000000103
20
-68.776793761679869
0
CIRCLE
5
106
100
AcDbEntity
8
0
100
AcDbCircle
10
-10.999999999999975
20
-54.776793761679876
30
0
40
0.500000000000001
210
0
220
-0
230
1
0
CIRCLE
5
107
100
AcDbEntity
8
0
100
AcDbCircle
10
-10.999999999999964
20
-64.776793761679897
30
0
40
0.500000000000001
210
0
220
-0
230
1
0
CIRCLE
5
108
100
AcDbEntity
8
0
100
AcDbCircle
10
11.000000000000071
20
-54.776793761679848
30
0
40
0.500000000000001
210
0
220
-0
230
1
0
CIRCLE
5
109
100
AcDbEntity
8
0
100
AcDbCircle
10
11.000000000000082
20
-64.776793761679869
30
0
40
0.500000000000001
210
0
220
-0
230
1
0
CIRCLE
5
110
100
AcDbEntity
8
0
100
AcDbCircle
10
3.8100000000000733
20
-67.276793761679883
30
0
40
0.500000000000001
210
0
220
-0
230
1
0
CIRCLE
5
111
100
AcDbEntity
8
0
100
AcDbCircle
10
-3.8099999999999468
20
-67.276793761679897
30
0
40
0.500000000000001
210
0
220
-0
230
1
0
CIRCLE
5
112
100
AcDbEntity
8
0
100
AcDbCircle
10
18.500000000000082
20
-52.276793761679841
30
0
40
0.80000000000000171
210
0
220
-0
230
1
0
CIRCLE
5
113
100
AcDbEntity
8
0
100
AcDbCircle
10
18.500000000000099
20
-67.276793761679869
30
0
40
0.80000000000000171
210
0
220
-0
230
1
0
CIRCLE
5
114
100
AcDbEntity
8
0
100
AcDbCircle
10
-18.499999999999993
20
-52.276793761679876
30
0
40
0.80000000000000171
210
0
220
-0
230
1
0
CIRCLE
5
115
100
AcDbEntity
8
0
100
AcDbCircle
10
-18.499999999999975
20
-67.276793761679897
30
0
40
0.80000000000000171
210
0
220
-0
230
1
0
LWPOLYLINE
5
116
100
AcDbEntity
8
0
100
AcDbPolyline
90
4
70
1
43
0.0
10
-1.5899999999999559
20
-52.596793761679862
10
-0.9499999999999541
20
-52.596793761679862
10
-0.94999999999995588
20
-51.956793761679862
10
-1.589999999999957
20
-51.956793761679862
0
LWPOLYLINE
5
117
100
AcDbEntity
8
0
100
AcDbPolyline
90
4
70
1
43
0.0
10
0.95000000000004636
20
-52.596793761679862
10
1.590000000000048
20
-52.596793761679862
10
1.5900000000000509
20
-51.956793761679862
10
0.95000000000004958
20
-51.956793761679862
0
LWPOLYLINE
5
118
100
AcDbEntity
8
0
100
AcDbPolyline
90
4
70
1
43
0.0
10
3.4900000000000553
20
-51.956793761679847
10
3.4900000000000557
20
-52.596793761679848
10
4.1300000000000523
20
-52.596793761679848
10
4.1300000000000505
20
-51.956793761679847
0
LWPOLYLINE
5
119
100
AcDbEntity
8
0
100
AcDbPolyline
90
4
70
1
43
0.0
10
-4.1299999999999626
20
-51.956793761679862
10
-4.1299999999999617
20
-52.596793761679862
10
-3.4899999999999611
20
-52.596793761679862
10
-3.4899999999999602
20
-51.956793761679862
0
LWPOLYLINE
5
120
100
AcDbEntity
8
0
100
AcDbPolyline
90
2
70
1
43
0.0
10
-13.886094305891278
20
-38.550015317276177
42
0.99999999999999989
10
-13.886094305891278
20
-30.550015317276184
42
-0.99999999999999989
0
CIRCLE
5
121
100
AcDbEntity
8
0
100
AcDbCircle
10
5.5511151231257827e-16
20
-34.55001531727617
30
0
40
5
210
0
220
-0
230
1
0
CIRCLE
5
122
100
AcDbEntity
8
0
100
AcDbCircle
10
5.5511151231257827e-16
20
-34.55001531727617
30
0
40
5
210
-0
220
0
230
1
0
LWPOLYLINE
5
123
100
AcDbEntity
8
0
100
AcDbPolyline
90
3
70
1
43
0.0
10
46
20
-34.550015317276163
42
0.41421356237309503
10
41.999999999999993
20
-30.550015317276156
42
-0.99999999999999989
10
41.999999999999993
20
-38.550015317276163
42
0.41421356237309503
0
LWPOLYLINE
5
124
100
AcDbEntity
8
0
100
AcDbPolyline
90
3
70
1
43
0.0
10
14.000000000000002
20
-38.55001531727617
10
13.886094305891278
20
-38.550015317276177
10
41.999999999999993
20
-38.550015317276163
0
LWPOLYLINE
5
125
100
AcDbEntity
8
0
100
AcDbPolyline
90
3
70
1
43
0.0
10
-14.000000000000002
20
-30.550015317276184
10
-13.886094305891278
20
-30.550015317276184
10
-41.999999999999993
20
-30.550015317276156
0
LWPOLYLINE
5
126
100
AcDbEntity
8
0
100
AcDbPolyline
90
3
70
1
43
0.0
10
14.000000000000002
20
-30.550015317276184
10
42
20
-30.550015317276184
10
13.886094305891277
20
-30.550015317276184
0
LWPOLYLINE
5
127
100
AcDbEntity
8
0
100
AcDbPolyline
90
3
70
1
43
0.0
10
-41.999999999999993
20
-30.550015317276156
42
0.41421356237309503
10
-46
20
-34.550015317276163
42
0.41421356237309503
10
-41.999999999999993
20
-38.550015317276163
42
-0.99999999999999989
0
LWPOLYLINE
5
128
100
AcDbEntity
8
0
100
AcDbPolyline
90
2
70
1
43
0.0
10
13.886094305891278
20
-30.550015317276184
42
0.99999999999999989
10
13.886094305891275
20
-38.550015317276177
42
-0.99999999999999989
0
LWPOLYLINE
5
129
100
AcDbEntity
8
0
100
AcDbPolyline
90
3
70
1
43
0.0
10
-14.000000000000002
20
-38.550015317276163
10
-42
20
-38.55001531727617
10
-13.886094305891277
20
-38.550015317276177
0
LWPOLYLINE
5
130
100
AcDbEntity
8
0
100
AcDbPolyline
90
14
70
1
43
0.0
10
-46
20
-26.999999999999993
10
46
20
-26.999999999999993
10
46
20
-21.834095634734094
10
46
20
-19.499999999999986
42
0.99999999999999989
10
33
20
-19.5
10
32.999999999999993
20
-22.999999999999993
10
3.9999999999999947
20
-22.999999999999993
10
3.9999999999999991
20
-22.649503305812257
42
-0.087624173546937745
10
-4.0000000000000071
20
-22.649503305812249
10
-3.9999999999999947
20
-22.999999999999993
10
-32.999999999999986
20
-22.999999999999993
10
-33
20
-19.499999999999986
42
0.99999999999999989
10
-46
20
-19.5
10
-46
20
-21.834095634734094
0
LWPOLYLINE
5
131
100
AcDbEntity
8
0
100
AcDbPolyline
90
6
70
1
43
0.0
10
20.87452614045538
20
-61
42
0.10186958370095071
10
20.554680340288609
20
-57
10
46
20
-57.000000000000014
10
45.999999999998728
20
-58.165904365269327
10
46
20
-61.000000000000007
10
28.999999999999876
20
-61
0
LWPOLYLINE
5
132
100
AcDbEntity
8
0
100
AcDbPolyline
90
6
70
1
43
0.0
10
-20.554680340288609
20
-56.999999999999993
42
0.10186958370095092
10
-20.87452614045538
20
-61
10
-28.999999999999876
20
-61
10
-46
20
-61.000000000000007
10
-45.999999999998728
20
-58.165904365269327
10
-46
20
-57.000000000000014
0
CIRCLE
5
133
100
AcDbEntity
8
0
100
AcDbCircle
10
39.5
20
-19.499999999999993
30
0
40
2.0999999999999952
210
0
220
-0
230
1
0
CIRCLE
5
134
100
AcDbEntity
8
0
100
AcDbCircle
10
-39.5
20
-19.499999999999993
30
0
40
2.0999999999999996
210
0
220
-0
230
1
0
CIRCLE
5
135
100
AcDbEntity
8
0
100
AcDbCircle
10
-39.5
20
-19.499999999999993
30
0
40
2.8000000000000025
210
0
220
-0
230
1
0
CIRCLE
5
136
100
AcDbEntity
8
0
100
AcDbCircle
10
39.5
20
-19.499999999999993
30
0
40
2.799999999999998
210
0
220
-0
230
1
0
ENDSEC
0
SECTION
2
OBJECTS
0
DICTIONARY
5
C
100
AcDbDictionary
3
ACAD_GROUP
350
D
3
ACAD_MLINESTYLE
350
17
0
DICTIONARY
5
D
100
AcDbDictionary
0
DICTIONARY
5
1A
330
C
100
AcDbDictionary
0
DICTIONARY
5
17
100
AcDbDictionary
0
ENDSEC
0
EOF
